sábado, 27 de junho de 2009

Deus e eu no sertão


Imagem da internet

Vitor e Leo

Obs: * O Victor usa o capotraste na 4º casa, então utilize-o
* Para quem não tem capotraste, suba o tom para mi(E) que fica igual.

E|-4--0-7---0----------------|
B|-4------5-----5--5---------|
G|-4----------6---0--0-0-----|
D|-4----------------6-0------|
A|-4--------------------6----|
E|-4-------------------------|

Intro - (C Am A9 Am C) 2x

C Am A9 Am C Am A9 Am
Nunca vi ninguem viver tão feliz
F G C G7
Como eu no sertão
C Am A9 Am C Am A9 Am
Perto de uma mata e de um ribeirão
F G C C7
Deus e eu no sertão
Dm G7 C Am
Casa simplisinha rede pra dormir
Dm G Am/G (2x pausa) C Am A9 Am C Am A9 Am
De noite o show no céu deito pra assistir
F G7 C G7
Deus e eu no sertão

E|-4--------------|
B|-4--------------|
G|-4---0--9-9-----|
D|-4--0-9-11-11---|
A|-4--------------|
E|-4--------------|

C Am A9 Am C Am A9 Am
As horas não sei mas vejo o clarão
F G C G7
Lá vou eu cuidar do chão
C Am A9 Am C Am A9 Am
Trabalho cantando a terra é a inspiração
F G7 C C7
Deus e eu no sertão
Dm G7 C Am
Não há solidão tem festa lá na vila
Dm G F G C
Depois da missa vou ver minha menina
Dm G7 C Am
De volta pra casa queima lenha no fogão
Dm G7 Am/G (2x pausa) C Am A9 Am C Am
E junto ao som da mata vou eu e um violão
F G7 C Am A9 Am F G7 C Am A9 Am
Deus e eu no sertão Deus e eu no sertão
C Am A9 Am C Am A9 Am
Hunrrum hummm hum, rum...

E|-4--0-7---0----------------|
B|-4------5-----5--5---------|
G|-4----------6---0--0-0-----|
D|-4----------------6-0------|
A|-4--------------------6----|
E|-4-------------------------|


Obs: O acorde de Am/G deve ser tocado duas vezes pra baixo, e deve ser feito com pestana na 5° casa, para isso, use a variação da nota

Umas das músicas mais bonitas nos ultimos tempos. Simples expressiva e de uma melodia acariciante. Postei aqui para os que tocam instrumentos possam usá-la e assim animar mais a vida.

Nenhum comentário:

Postar um comentário